Althea

Intro

Back to rukind

------------Bm--------------A-------------E----------A
e-----------------------------------------------------
b------------------3--------2--3--2------------------2
g----------------------4----2--2--2--0h1------1-1----2
d---------------4--------4----------------2---2-2----2
a-----0--1--2-------2-------0-----0------------------0
e--4----------------------------------------0-----0---


------------Bm--------------A-------------E--------------------
e----------------------------------------------------------------
b------------------3--------2--3--2------------------------------
g----------------------4----2--2--2--0h1------1--2--0h1------1
d---------------4--------4----------------2---2--2------2----2
a-----0--1--2-------2-------0-----0-----------------------------
e--4----------------------------------------0----0---------0