Black Peter

Intro

Back to rukind

I

e------------------------------------
b--------------------1pu2-2--1pu2-1pu2--
g------2--------2---------------------
d--1pu2-2-1po0-------1pu2-2--1pu2-1pu2--
a-------------3---0--------0----------0-
e---------------------------------------

II (no 3 on the A string - C note)

e------------------------------------
b--------------------1pu2-2--1pu2-1pu2--
g------2--------2---------------------
d--1pu2-2-1po0-------1pu2-2--1pu2-1pu2--
a-----------------0--------0----------0-
e---------------------------------------

III

e------------------------------------
b--------------------1pu2-2--1pu2-1pu2--
g------0-2----------------------------
d--1pu2---1po0-------1pu2-2--1pu2-1pu2--
a-------------3---0--------0----------0-
e---------------------------------------