China Cat

Bob Intro

	(^) Slide Up  (\) Slide Down  (h) Hammer On  (p) Pull Off  (b) Bend

MP3 Tab Support Audio (27K)

MIDI Tab Support Audio (chinacat.mid)

MIDI plays Jerry & Bob tabs together

E----------------------|------------------
B---12--13p12----------|--12h13--15--15---
G--------------14--12--|------------------
D----------------------|------------------
A----------------------|------------------
E----------------------|------------------

E----------------------|-10--12--13----15--17--19---
B---12--13p12----------|----------------------------
G--------------14------|----------------------------
D----------------------|----------------------------
A----------------------|----------------------------
E----------------------|----------------------------

E----------------------|------------------
B---12--13p12----------|--12h13--15--15---
G--------------14--12--|------------------
D----------------------|------------------
A----------------------|------------------
E----------------------|------------------

E----------------------|-10--12--13----15--17--15---
B---12--13p12----------|----------------------------
G--------------14------|----------------------------
D----------------------|----------------------------
A----------------------|----------------------------
E----------------------|----------------------------