China Cat

Verse Ending

(^) Slide Up  (\) Slide Down  (h) Hammer On  (p) Pull Off  (b) Bend

MP3 Tab Support Audio (51K)

MIDI Tab Support Audio (chinaca2.mid)

E-5h7-5---|-----5-7-|-7-7-7-7h8p7-------|-----7-5---5------
B-------8-|-5^8-----|-------------10--8-|-5-8-----8---8--5--
G---------|---------|-------------------|-------------------
D---------|---------|-------------------|-------------------
A---------|---------|-------------------|-------------------
E---------|---------|-------------------|-------------------

E---------|--------|----7-8p7------------------
B-------7-|-7h8-10-|-10-------10--8-10p8-7-----
G-7-7h9---|--------|-----------------------9---
D---------|--------|---------------------------
A---------|--------|---------------------------
E---------|--------|---------------------------
                                  C    D
E---------|--------|----7-8p7-----8----10------
B-------7-|-7h8-10-|-10-------10--8----10------
G-7-7h9---|--------|--------------9----11------
D---------|--------|--------------10---12------
A---------|--------|--------------10---12------
E---------|--------|--------------8----10------