Slipnot!

Part VI

    Dm*                Em*             D                  A
E-----------------------------------------------------------
B-----------------------------------------------------------
G---14--11-------------12--9--------------------------------
D-----------12----------------10-------12--9----------------
A---------------14----------------12----------10------10^12-
E-------------------------------------------------12--------

*  Play these chords as follows:

      Dm      Em

E-----12------14--------------------------------------------
B-----12------14--------------------------------------------
G-----12------14--------------------------------------------
D-----------------------------------------------------------
A-----------------------------------------------------------
E-----------------------------------------------------------