Help On The Way

Verse Part I

                         Fm                                      Cm
E------------------------8---------------------------------------8--
B------------------------9---------------------------------------8--
G-----------------------10---------------------------------------8--
D-------------10p8------10-------------------------10p8----------10-
A---8h10--11--------10---8---------------8h10--11--------10------10-
E------------------------------------------------------------11--8--
                        Paradise waits
                        She Has No Pain


                                                            Fm Eb  Dmin-
E---------------------------------8----------------------------------
B---------------------------------9----------------------------------
G--------------------------------10----------------------------------
D--------------------------------10----------------------------------
A---------------------------------8---------------------6-7-8--------
E-----------------------------------------------------8--------11--10
     On the crest of a wave, her angels in flame


           Dmin-
  X                   X
 4|---|---|---|---|---|
  |   |   |   |   |   |
  |---|---|---|---|---|
  |   X   |   X   |   |
  |---|---|---|---|---|
  |   |   X   |   X   |
  |---|---|---|---|---|
  |   |   |   |   |   |
  |---|---|---|---|---|


                                                            Fm Eb  Fm
E---------------------------------8----------------------------------
B---------------------------------9----------------------------------
G--------------------------------10----------------------------------
D--------------------------------10----------------------------------
A---------------------------------8---------------------6-7-8---6--8-
E-----------------------------------------------------8--------------
    Like a child she is pure she is not to blame