Help On The Way

Verse Part II


E-----------------------------|-----------------------------
B------------6------4---3-----|-3-----3---6-----4------3----
G--------5--------------------|----5------------------------
D-----6------6------5---3-----|-----------6-----5------3----
A--8--------------------------|-----------------------------
E-----------------------------|-----------------------------
             poised for flight           wings spread bright

E------------------------------3-3--1--------3--3---3--3---3
B--------3----4-----3----1--------------4----1--1---1--1---1
G-----5--------------------------------------1--1---1--1---1
D--6----------5-----3----1-------------------3--3---3--3---3
A---------------------------------------3----3--3---3--3---3
E--------------------------------------------1--1---1--1---1
             spring from night into the sun