I'll take a Melody

Bridge

(^) Slide Up  (\) Slide Down  (h) Hammer On  (p) Pull Off  (b) Bend

RA Tab Support Audio (50K)

MIDI Tab Support Audio (melody3.mid)

E------8-------8-----------------10---------10--------------
B----------------10p8--------------------------12p10--------
G--2^9-----2^9--------9----4^11------4^11------------11-----
D-----------------------------------------------------------
A-----------------------------------------------------------
E-----------------------------------------------------------

    C    A    C  B  A#  A
E---8----5----8--7--6---5-----------------------------------
B---8----5----8--7--6---5-----------------------------------
G---9----6----9--8--7---6-----------------------------------
D---10---7----10-9--8---7-----------------------------------
A---10---7----10-9--8---7-----------------------------------
E---8----5----8--7--6---5-----------------------------------

E------8-------8-----------------10---------10--------------
B----------------10p8--------------------------12p10--------
G--2^9-----2^9--------9----4^11------4^11------------11-----
D-----------------------------------------------------------
A-----------------------------------------------------------
E-----------------------------------------------------------

E-------12---------16--16--16--16---------------------------
B------------------17--17--17--17---------------------------
G--6^13-----6^13--------------------------------------------
D-----------------------------------------------------------
A-----------------------------------------------------------
E-----------------------------------------------------------