Terrapin Station

Terrapin Solo 1

(^) Slide Up  (\) Slide Down  (h) Hammer On  (p) Pull Off  (b) Bend

MP3 Tab Support Audio (84K)

MIDI Tab Support Audio (terrap3.mid)

E--10-------10-12-13-|--17---20-15*--10-------10------------- 
B-----12-13----------|------------------13-12----13----------
G--------------------|---------------------------------------
D--------------------|---------------------------------------
A--------------------|---------------------------------------
E--------------------|---------------------------------------

E----------------------|-------------------------------------
B-9h10-12-10----10-----|----------10-12-10------------------
G------------12----12--|--8^9--12----------12----------------
D----------------------|-------------------------------------
A----------------------|-------------------------------------
E----------------------|-------------------------------------

E----------------|------13-17-17-15-|-13-12-------------------
B----------------|10-13-------------|-------------------------
G-8^9--12-9-12-9-|------------------|-------------------------
D----------------|------------------|-------------------------
A----------------|------------------|-------------------------
E----------------|------------------|-------------------------

E-13-10-|---------------10--|-----10-12-13-13-15-12-10--------
B-------|13-12-10-12-13-----|--13----------------------13-----
G-------|-------------------|---------------------------------
D-------|-------------------|---------------------------------
A-------|-------------------|---------------------------------
E-------|-------------------|---------------------------------

E-10-------10-----------------------------------------------
B----13-12----12-----9h10-12-10----10-----------10----------
G-------------------------------12----12-8^9-12-------------
D-----------------------------------------------------------
A-----------------------------------------------------------
E-----------------------------------------------------------

E--13-12----12-13-15-17----13-12----12-13-15-17-------------
B--------15----------------------15-------------------------
G-----------------------------------------------------------
D-----------------------------------------------------------
A-----------------------------------------------------------
E-----------------------------------------------------------

* on the video I said it was 14, the correct fret is 15