Terrapin Station

Terrapin Solo 2

(^) Slide Up  (\) Slide Down  (h) Hammer On  (p) Pull Off  (b) Bend

MP3 Tab Support Audio (102K)

MIDI Tab Support Audio (terrap4.mid)

  This part 5X
E--------------------12-|-14^15-12--------------------------
B--13-12----12-13-15----|----------13----15-12--------------
G--------14-------------|-------------14-------14-12--------
D-----------------------|----------------------------14-----
A-----------------------|-----------------------------------
E-----------------------|-----------------------------------
                                   B                     Em
E----------13-12--------------------------------------------
B-12-13-15-------12-13-15-12-13-15-12--12-13-15-12-13-15-12-
G-----------------------------------------------------------
D-----------------------------------------------------------
A-----------------------------------------------------------
E-----------------------------------------------------------

E-------15---------------17-15-----------15-17-18-15--------
B-15^17----17-15-17-17---------17-16-17---------------------
G-----------------------------------------------------------
D-----------------------------------------------------------
A-----------------------------------------------------------
E-----------------------------------------------------------

E-18-17-15-------15-----------------------------------------
B----------17-15----17--------------------------------------
G-----------------------------------------------------------
D-----------------------------------------------------------
A-----------------------------------------------------------
E-----------------------------------------------------------

E----------------12--10-------------------------------------
B----11--12--13----------10---------------------17--15------
G----------------------------12--10-----15--17--------------
D-------------------------------------------------------15--
A-----------------------------------------------------------
E-----------------------------------------------------------