Terrapin Station

Terrapin Station Riff

(^) Slide Up  (\) Slide Down  (h) Hammer On  (p) Pull Off  (b) Bend

MP3 Tab Support Audio (39K)

MIDI Tab Support Audio (terrap6.mid)

   Some Rise         Some Fall          Some Climb
E-----------------------------------------------------------
B-----------------------------------------------------------
G-------------------------------------------------------1---
D-----------0-2-4-2-----------2-0h2-4-0---------2-0-2-4-----
A-----------------------------------------------------------
E-----------------------------------------------------------

E-----------------------------------------------------------
B-----------------------------------------------------------
G------------------------------------2----------------------
D---------------2---4-2----------2-4------------------------
A--0-2-4----2-4---------4----2-4----------------------------
E-----------------------------------------------------------