Cold Rain & Snow

Intro

(^) Slide Up  (\) Slide Down  (h) Hammer On  (p) Pull Off  (b) Bend

MP3 Tab Support Audio (24K)

MIDI Tab Support Audio (coldrain.mid)

                                 D*       E*
E--------------------------------2-------------------
B--------------------------------3--------0----------
G--------------------------------2--------1----------
D--------------------------0--------------2----------
A----------------------0------------------2----------
E--0--0--2--0--4--0----------------------------------

* (Listen to the tune for the number of strokes)

E-------------------------------------------------
B-------------------------------------------------
G-------------------------------------------------
D-1^2--0------------------------------------------
A-----------2--0----------------------------------
E------------------3---0--------------------------