Cold Rain & Snow

Solo

(^) Slide Up  (\) Slide Down  (h) Hammer On  (p) Pull Off  (b) Bend

MP3 Tab Support Audio (37K)

MIDI Tab Support Audio (coldrai2.mid)

                D
E---------7---------|----------|----------|-----------------
B---7--9-----7--10--|-7--9--10-|-7--9--10-|-----------------
G-------------------|----------|----------|-----------------
D-------------------|----------|----------|-----------------
A-------------------|----------|----------|-----------------
E-------------------|----------|----------|-----------------

                                                 E
E-------------7------------------|--------------------------
B---7--9--10-----10--9--7--9--10-|------------7-------------
G--------------------------------|------6--9-----9----------
D--------------------------------|---9----------------------
A--------------------------------|--------------------------
E--------------------------------|--------------------------

                       D
E------------------------|------------|---------------------
B------------7-----------|------------|---------------------
G------6--9-----9--6--7--|------6--7--|-----6--7------------
D---9--------------------|---9--------|--9------------------
A------------------------|------------|---------------------
E------------------------|------------|---------------------

                      E
E-----------------------------------------------------------
B-----------------------------------------------------------
G------6--7--9--7--6--9-------------------------------------
D---9-------------------------------------------------------
A-----------------------------------------------------------
E-----------------------------------------------------------

                 D
E---------12---------|------------|------------|------------
B--12--14----12--15--|-12--14--15-|-12--14--15-|------------
G--------------------|------------|------------|------------
D--------------------|------------|------------|------------
A--------------------|------------|------------|------------
E--------------------|------------|------------|------------

                                                  E
E------------12------------------|--------------------------
B--12-14--15-----15-14-12-14--15-|--------12--14--12--------
G--------------------------------|-11--13-------------------
D--------------------------------|--------------------------
A--------------------------------|--------------------------
E--------------------------------|--------------------------

                          D
E----------------------------|------------|-----------------
B---------12--14--12---------|------------|-----------------
G--11--13-------------11--14-|-11--13--14-|--11--13--14-----
D----------------------------|------------|-----------------
A----------------------------|------------|-----------------
E----------------------------|------------|-----------------

                           E
E-----------------------------------------------------------
B--------------12----------12-------------------------------
G--11--13--14------14--11-----------------------------------
D-----------------------------------------------------------
A-----------------------------------------------------------
E-----------------------------------------------------------