Ripple

Intro

(^) Slide Up  (\) Slide Down  (h) Hammer On  (p) Pull Off  (b) Bend

MP3 Tab Support Audio (75K)

MIDI Tab Support Audio (ripple.mid)

On the chords below, the exact number of strokes is not given....all depends on how you want to play it. That's just where they go.

                   G                         C
E------------------3-------------------------0--------------
B------------------0-------------0-----0-----1--------------
G------------------0-------0--0-----2-----0--0--------------
D-----------0------0-------------------------2--------------
A--2--2--3---------2-------------------------3--------------
E--------------3---3-------------------------3--------------

           C                              G
E----------0------------------------------3-----------------
B----------1------------------------------0-----------------
G-------0--0--0h2--0-----------0----------0-----------------
D--0h2-----2----------2---0h2-----0h2--0--0-----------------
A----------3------------------------------2-----------------
E----------3------------------------------3-----------------

                   G                         C
E------------------3-------------------------0--------------
B------------------0-------------0-----0--1--1--------------
G------------------0-------0--0-----2--------0--------------
D-----------0------0-------------------------2--------------
A--2-2-2-3---------2-------------------------3--------------
E--------------3---3-------------------------3--------------

       G        D                G
E------3--------2----------------3--------------------------
B------0--0--1--3----------------0--------------------------
G--0h2-0--------2-------0--0--2--0--------------------------
D------0--------0----2-----------0--------------------------
A------2-------------------------2--------------------------
E------3-------------------------3--------------------------