St. Stephen

Bridge

(^) Slide Up  (\) Slide Down  (h) Hammer On  (p) Pull Off  (b) Bend

MP3 Tab Support Audio (102K)

MIDI Tab Support Audio (stephen4.mid)

   E          D A              E
E---------------10------------------------------------------
B--9-10-12-12------12-10-12p10-9---------------------------
G-----------------------------------------------------------
D-----------------------------------------------------------
A-----------------------------------------------------------
E-----------------------------------------------------------
   D         A         E         D
E--------------------------------10-9-10--------------------
B--9-10-9---------9-10-12-10-12-----------------------------
G---------11-9-11-------------------------------------------
D-----------------------------------------------------------
A-----------------------------------------------------------
E-----------------------------------------------------------
   E          D A              E
E---------------10------------------------------------------
B--9-10-12-12------12-10-12p10-9----------------------------
G-----------------------------------------------------------
D-----------------------------------------------------------
A-----------------------------------------------------------
E-----------------------------------------------------------
   D         A         E  D
E-------------------------10-9-10---------------------------
B--9-10-9---------9-10-9------------------------------------
G---------11-9-11-------------------------------------------
D-----------------------------------------------------------
A-----------------------------------------------------------
E-----------------------------------------------------------
   E          D A              E
E---------------10------------------------------------------
B--9-10-12-12------12-10-12p10-9----------------------------
G-----------------------------------------------------------
D-----------------------------------------------------------
A-----------------------------------------------------------
E-----------------------------------------------------------
   D         A         E        D
E-------------------------------10-9-10---------------------
B--9-10-9---------9-10-12-10-12-----------------------------
G---------11-9-11-------------------------------------------
D-----------------------------------------------------------
A-----------------------------------------------------------
E-----------------------------------------------------------
   E          D A              E
E---------------10------------------------------------------
B--9-10-12-12------12-10-12p10-9----------------------------
G-----------------------------------------------------------
D-----------------------------------------------------------
A-----------------------------------------------------------
E-----------------------------------------------------------
   D         A          E      D
E-----------------------9----9-10-9-------------------------
B--9-10-9----10-9-12-10---12--------12-10-------------------
G---------11------------------------------------------------
D-----------------------------------------------------------
A-----------------------------------------------------------
E-----------------------------------------------------------